Ir al contenido principal

Solo Necesitas Una... 10 Riffs con Una Sola Cuerda. En Tablatura.


   He recopilado para ti, 10 riffs de guitarra muy conocidos y fáciles de aprender, con los que rápidamente comenzarás a tocar la guitarra, para que enseguida sientas tu progreso y alejes la desmotivación y la sensación de dificultad que puede hacer mella en ti, al ver las seis cuerdas de tu guitarra y la sensación de que no vas a poder sincronizar tus manos.

  Leyendo otros artículos, foros y debates, he encontrado que uno de los temores al que se enfrenta el aprendiz de guitarra, es la posibilidad de no ser capaz de sincronizar sus dedos entre las seis cuerdas de la guitarra. Es un miedo falso, todo lo que necesitas para empezar es entusiasmo. Lo que toques y donde lo aprendas es cosa tuya. Lo verdaderamente importante es empezar a tocar.

  También es cierto, que aunque para comenzar a tocar la guitarra es necesario practicar algunos acordes y patrones de rasgueo, lo primero que buscamos los guitarristas principiantes es aprender algunas melodías fáciles de tocar con la guitarra.

  Por eso hoy quiero dejarte una serie de riffs en tablatura para guitarra tocados en una sola cuerda. Riffs muy conocidos con los que alimentar nuestra motivación y la sensación de avance. Prepárate para disfrutar de algunos riffs de guitarra famosos, ¿tienes tu guitarra a punto?  Comienza la diversión.


10 Riffs con Una Sola Cuerda. En Tablatura.

  Para ponértelo más fácil, voy a dejarte unos videos de YouTube de donde he sacado las tablaturas, para que te resulte más sencillo identificar los riffs y cómo se tocan. Verás que no todos se tocan en su versión original exactamente así, están adaptados a una cuerda siempre, pensado para que practiques y te diviertas.
  En los vídeos han quedado otros muchos riffs, prueba a sacarlos tu mismo y amplia tu catálogo de riffs clásicos que sabes tocar. 





1. Satisfaction. Rolling Stones.

(0:53)

1.-------------------------------|
2.-------------------------------|
3.-------------------------------|
4.-------------------------------|
5.-------------------------------|
6.-7-7--7-9-10--10-10-9-9-7--7-7-|

1.--------------------------|

2.--------------------------|
3.--------------------------|
4.--------------------------|
5.--------------------------|
6.-7-9-10--10-10-9-9-7--7-7-|

  Pero no quiero que cortes las demás cuerdas, también las vamos a usar para tocar otros riffs, o como en el caso de éste, tocarlo en la quinta cuerda.


1.-----------------------------|

2.-----------------------------|
3.-----------------------------|
4.-----------------------------|
5.-2-2--2-4-5--5-5-4-4-2--2-2--|
6.-----------------------------|

1.------------------------|

2.------------------------|
3.------------------------|
4.------------------------|
5.-2-4-5--5-5-4-4-2--2-2--|
6.------------------------|


2. New York City Cops. The Strokes.


(1:44)


1.-------------------------|
2.-------------------------|
3.-------------------------|
4.-------------------------|
5.-------------------------|
6.-5--5--5--5---5--5--5--5-|

1.--------------|
2.--------------|
3.--------------|
4.--------------|
5.--------------|
6.-3--0-3--0-3--|

1.-------------------------|
2.-------------------------|
3.-------------------------|
4.-------------------------|
5.-------------------------|
6.-5--5--5--5---5--5--5--5-|

1.--------------|
2.--------------|
3.--------------|
4.--------------|
5.--------------|
6.-3--0-3--0-3--|


3. Roadhouse Blues. The Doors.


(2:00)


1.---------------------|
2.---------------------|
3.---------------------|
4.---------------------|
5.---------------------|
6.-0--0-0--0-0--0-5/7--|

1.---------------------|
2.---------------------|
3.---------------------|
4.---------------------|
5.---------------------|
6.-0--0-0--0-0--0-5/7--|



4. Du Hast. Rammstein.


(0:40)


1.-------------------------------|

2.-------------------------------|
3.-------------------------------|
4.-------------------------------|
5.-------------------------------|
6.-5p3-0-0--0-0-0--0-0-0--5p3-0--|

1.--------------------------|

2.--------------------------|
3.--------------------------|
4.--------------------------|
5.--------------------------|
6.-0-0--0-0-0--0-0-0--5p3-0-|

1.-------------------------------|

2.-------------------------------|
3.-------------------------------|
4.-------------------------------|
5.-------------------------------|
6.-0-0--0-0-0--0-0-0--5p3-0--0-0-|

1.-------------------------------|

2.-------------------------------|
3.-------------------------------|
4.-------------------------------|
5.-------------------------------|
6.-0-0-0--0-0-0--3h5-0-0--0-0-0--|


5. Peter Gunn Theme. Blues Brothers.


(1:08)


1.----------------------|

2.----------------------|
3.----------------------|
4.----------------------|
5.----------------------|
6.-0-0-2-0--2/3--0-5-4--|

1.----------------------|

2.----------------------|
3.----------------------|
4.----------------------|
5.----------------------|
6.-0-0-2-0--2/3--0-5-4--|

1.----------------------|

2.----------------------|
3.----------------------|
4.----------------------|
5.----------------------|
6.-0-0-2-0--2/3--0-5-4--|


6. Seven Nation Army. The White Stripes.


(1:24)


1.----------------------|

2.----------------------|
3.----------------------|
4.----------------------|
5.----------------------|
6.-/12--12-15-12--10-8-7

1.----------------------|

2.----------------------|
3.----------------------|
4.----------------------|
5.----------------------|
6.-/12--12-15-12--10-8-7

1.----------------------|

2.----------------------|
3.----------------------|
4.----------------------|
5.----------------------|
6.-/12--12-15-12--10-8-7

1.----------------------------|

2.----------------------------|
3.----------------------------|
4.----------------------------|
5.----------------------------|
6.-/12--12-15-12--10-8-10-8-7-|


7. Misirlou. Dick Dale.


(0:13)


1.----------------------------|

2.----------------------------|
3.----------------------------|
4.----------------------------|
5.----------------------------|
6.-//0-0-0-0-0-0-0-0-0-0-0-0h4

1.----------------------------|

2.----------------------------|
3.----------------------------|
4.----------------------------|
5.----------------------------|
6.-/5-/7--7/10--8-7-7-7-7-7-7-|

1.----------------------------|

2.----------------------------|
3.----------------------------|
4.----------------------------|
5.----------------------------|
6.-//0-0-0-0-0-0-0-0-0-0-0-0h4

1.----------------------------|

2.----------------------------|
3.----------------------------|
4.----------------------------|
5.----------------------------|
6.-/5-/7--7/10--8-7-7-7-7-7-7-|

1.----------------------------|

2.----------------------------|
3.----------------------------|
4.----------------------------|
5.----------------------------|
6.-8-7-8-7-5--7-5-7-5-4-4-4-4-4

1.----------------------------|

2.----------------------------|
3.----------------------------|
4.----------------------------|
5.----------------------------|
6.-4-4-4--7-5-7-5-4--5-4-5-4-1

1.----------------------------|

2.----------------------------|
3.----------------------------|
4.----------------------------|
5.----------------------------|
6.-0-0-0-0-0-0-0-0-0-0-0-0-0-0|






8. Beat It. Michael Jackson.


(1:04)


1.-----------------------------|

2.-----------------------------|
3.-----------------------------|
4.-----------------------------|
5.-----------------------------|
6.-0--3--7--/14-12--/14-12-10-10

1.------------------------------|

2.------------------------------|
3.------------------------------|
4.------------------------------|
5.------------------------------|
6.-0--3--7--/14-12--/14-12-10-x-x



9. Shunsine of Your Love. Cream.

(1:36)


1.-----------------------------|

2.-----------------------------|
3.-----------------------------|
4.-----------------------------|
5.-----------------------------|
6.-10-10-8-10--5-4-3--10-10/13-10

1.-----------------------------|

2.-----------------------------|
3.-----------------------------|
4.-----------------------------|
5.-----------------------------|
6.-10-10-8-10--5-4-3--10-10/13-10








10. Smell Like Teen Spirits. Nirvana.


(0:03)


1.-----------------------------|

2.-----------------------------|
3.-----------------------------|
4.-----------------------------|
5.-----------------------------|
6.-//1-1-1--6-6-5-4--4-4--9-9--|

1.---------------------------|

2.---------------------------|
3.---------------------------|
4.---------------------------|
5.---------------------------|
6.-1-1-1--6-6-5-4--4-4--9-9--|


  Vaya he contado mal, no son 10, son 13, fenomenal! Para terminar otros tres clásicos del heavy rock, los dos últimos tocados esta vez, en una sola cuerda si, pero en la primera y en la segunda respectivamente:







11. Motorbreath. Metallica.


(3:00)


1.------------------------------|

2.------------------------------|
3.------------------------------|
4.------------------------------|
5.------------------------------|
6.-5-6-7--7-7-7--7-7-7--7-7-7-7-7

1.----------------------------|

2.----------------------------|
3.----------------------------|
4.----------------------------|
5.----------------------------|
6.-3--3-3-3--3-3-3--3-3-3-3-3-|

1.----------------------------|

2.----------------------------|
3.----------------------------|
4.----------------------------|
5.----------------------------|
6.-5--5-5-5--5-5-5--5-5-5-5-5-|

1.----------------------------|

2.----------------------------|
3.----------------------------|
4.----------------------------|
5.----------------------------|
6.-2--2-2-2--2-2-2--2-2-2-2-2-|

1.----------------------------|

2.----------------------------|
3.----------------------------|
4.----------------------------|
5.----------------------------|
6.-3--3-3-3--3-3-3--3-3-3-3-3-|

1.----------------------------|

2.----------------------------|
3.----------------------------|
4.----------------------------|
5.----------------------------|
6.-5--5-5-5--5-5-5--5-5-5-5-5-|

1.----------------------------|

2.----------------------------|
3.----------------------------|
4.----------------------------|
5.----------------------------|
6.-2--2-2-2--2-2-2--2-2-2-2-2-|

1.----------------------------|

2.----------------------------|
3.----------------------------|
4.----------------------------|
5.----------------------------|
6.-3--3-3-3--3-3-3--3-3-3-3-3-|

1.----------------------------|

2.----------------------------|
3.----------------------------|
4.----------------------------|
5.----------------------------|
6.-5--5-5-5--5-5-5--5-5-5-5-5-|

1.----------------------------|

2.----------------------------|
3.----------------------------|
4.----------------------------|
5.----------------------------|
6.-2--2-2-2--2-2-2--2-2-2-2-2-|



1.--------------------------|

2.--------------------------|
3.--------------------------|
4.--------------------------|
5.--------------------------|
6.-7-7-7-5-7-7-7--3-3-2-3-3-|

1.----------------------|

2.----------------------|
3.----------------------|
4.----------------------|
5.----------------------|
6.-5-5-3-5-5--2-2-0-2-2-|


12. Wasted years. Iron maiden.



1.-12-0-0-0-0-0-7-0-0-0-0-0-|
2.--------------------------|
3.--------------------------|
4.--------------------------|
5.--------------------------|
6.--------------------------|

1.-8-0-0-0-0-0-5-0-0-0-0-0-|
2.-------------------------|
3.-------------------------|
4.-------------------------|
5.-------------------------|
6.-------------------------|

1.-7-0-0-0-3-0-0-0-5-0-0-0-0
2.--------------------------|
3.--------------------------|
4.--------------------------|
5.--------------------------|
6.--------------------------|

1.-0-2-0-0-0-0-0-3-0-0-0-0-0|
2.--------------------------|
3.--------------------------|
4.--------------------------|
5.--------------------------|
6.--------------------------|

1.-5-0-0-0-0-0-2-0-0-0-3-0-0-0
2.---------------------------|
3.---------------------------|
4.---------------------------|
5.---------------------------|
6.---------------------------|


13. Thunderstruck.Ac/Dc.


1.--------------------------------|
2.-0-4-0-7-0-4-0-7-0-4-0-7-0-4-0-7
3.--------------------------------|
4.--------------------------------|
5.--------------------------------|
6.--------------------------------|

1.--------------------------------|
2.-0-4-0-7-0-4-0-7-0-4-0-7-0-4-0-7
3.--------------------------------|
4.--------------------------------|
5.--------------------------------|
6.--------------------------------|


1.----------------------------------|
2.-0-5-0-8-0-5-0-8-0-5-0-8-0-5-0-8-0
3.----------------------------------|
4.----------------------------------|
5.----------------------------------|
6.----------------------------------|

1.--------------------------------|
2.-0-5-0-8-0-5-0-8-0-5-0-8-0-5-0-8
3.--------------------------------|
4.--------------------------------|
5.--------------------------------|
6.--------------------------------|

1.--------------------------------|
2.-0-4-0-7-0-4-0-7-0-4-0-7-0-4-0-7
3.--------------------------------|
4.--------------------------------|
5.--------------------------------|
6.--------------------------------|

1.--------------------------------|
2.-0-4-0-7-0-4-0-7-0-4-0-7-0-4-0-7
3.--------------------------------|
4.--------------------------------|
5.--------------------------------|
6.--------------------------------|


1.--------------------------------|
2.-0-5-0-8-0-5-0-8-0-5-0-8-0-5-0-8-0
3.--------------------------------|
4.--------------------------------|
5.--------------------------------|
6.--------------------------------|

1.-------------------------------|
2.-0-5-0-8-0-5-0-8-0-5-0-8-0-5-0-8
3.-------------------------------|
4.-------------------------------|
5.-------------------------------|
6.-------------------------------|

1.------------------------------|
2.-0-12-0-10-0-9-0-10-0-9-0-7-0-9
3.------------------------------|
4.------------------------------|
5.------------------------------|
6.------------------------------|

1.--------------------------------|
2.-0-5-0-4-0-7-0-4-0-5-0-4-0-5-0-4
3.--------------------------------|
4.--------------------------------|
5.--------------------------------|
6.--------------------------------|

  Conoces más riffs tocados en una sola cuerda que quieras compartir con todos? No te cortes y deja tu comentario.

Comentarios

Lo más leído:

Tabs Fácil de... Nineteen Eighty. Joe Satriani.

Joe Satriani vuelve a estar de actualidad y es que ya anunciado alguno de los detalles de lo que será su próxima obra, que saldrá a la venta el próximo 10 de abril bajo el título de "Shapeshifting" y que supondrá el álbum número 17 del guitarrista.

Satriani ha contado con la participación de muchos artistas invitados, como viene siendo habitual, como es el caso de Kenny Aronoff (John Fogerty) a la batería, el bajista Chris Chaney (Jane’s Addiction) y el teclista Eric Caudieux, además de las contribuciones de Lisa Coleman (The Revolution) y Christopher Guest.

  De momento ya podemos disfrutar de su primer single "Nineteen Eighty" un guiño del guitarrista a aquella década pasada, que no solo recuerda a Eddie Van Halen o al propio Satriani y al sonido de los 80, no lo digo yo, me hago eco de lo que cuentan las revistas especializadas como GuitarWorld entre otras, sino también porque el guitarrista ha utilizado en la propia canción un fhaser MXR EVH.
  Incluso el mismo Sa…

Tabs fácil de... Chasing the Twilight Zone. Rage.

La banda Rage nos presentaba en Enero su álbum número 24 en su carrera discográfica. Un disco al que titulaban "Wings of Rage" y con el que volvían a constatar la plena forma en la que se encuentran y cómo dejaban atrás la sombra de Victor Smolski, ex guitarrista de la banda.
Rage pasaban hace poco por tierras hispanas para descargar los temas de su nuevo plástico, dejando constancia lo que revela el disco y os mencionaba anteriormente, la excelente forma del grupo de origen alemán.
  A continuación os quiero dejar un pequeño fragmento en tablatura del tema que fue su último single antes de la salida a la calle del disco, "Chasing the Twilight Zone".
  Un saludo.


Tabs fácil de... Chasing the Twilight Zone. Rage.
1.-14-15-14----14-15-14--| 2.----------16----------16 3.-----------------------| 4.-----------------------| 5.-----------------------| 6.-----------------------|
1.-14-15-14----14-15-14--| 2.----------16----------16 3.-----------------------| 4.-----------------------| …

Cómo Coger la Guitarra: Las Manos, La Púa, Técnicas Básicas. Guía Fácil.

El título del artículo de hoy es indispensable para cualquiera que pretenda aprender a tocar la guitarra:"Cómo Coger la Guitarra: Las Manos, La Púa, Técnicas Básicas. Guía Fácil." Un artículo en el que voy a explicarte o describirte la manera correcta o mejor manera de cómo coger la guitarra, además de la posición de ambas manos en la guitarra, la manera de coger la púa, y algunas de las técnicas básicas más utilizadas por los guitarristas modernos, como son el Palm Mute o los Bends


Cómo Coger la Guitarra.
  La mejor manera de coger la guitarra para aprender será sentado, en posición erguida, en una silla sin brazos.

  Sostén la parte posterior de la guitarra de modo que entre en contacto con tu abdomen y pecho, y apóyala sobre la pierna del lado donde está la mano con que vas a rasguear o coger la púa. 
 Una opción sería cruzar la pierna derecha sobre la izquierda (diestros) y apoyar la guitarra sobre la pierna derecha, teniendo la guitarra, siempre en contacto con el cuerpo…

Tabs Fácil de... Tu Funeral. Mägo de Oz.

Mägo de Oz sorprendía hace unos días a su  legión de seguidores al hacer público el comunicado de Carlitos y Frank, guitarristas de la banda, en el que de manera muy escueta pero muy clara, oficializaban su salida del grupo. Ambos Guitarristas formaban parte de la banda hacia más de 25 años y habían grabado todos los discos de la formación desde su "Jesucristo de Chamberí".

"Hola amig@s!!
Hay momentos en la vida en los que sólo queda un camino que seguir. Han sido muchos años disfrutando y amando nuestro trabajo, y muchas las experiencias y las emociones vividas que jamás olvidaremos. Por ello, os queremos dar las gracias a tod@s vosotr@s, y también por sentir vuestro apoyo y cariño en todo momento.
Esperamos veros pronto en los escenarios y trasmitiros la ilusión por la Música que nunca hemos perdido.
Gracias Mägo de Oz, por ser parte de nuestras vidas. ¡¡Larga vida!!"

  Los rumores comenzaban a dispararse, por un lado los motivos de la salida de los dos míticos Guita…

Tu Primer Solo de Guitarra. Guía Fácil.

Conociendo la Escala Pentatónica y una serie de recursos y técnicas básicas, tendremos a nuestro alcance todas las herramientas necesarias para crear nuestro primer solo de guitarra. Es posible que, ya dispongas del conocimiento de la escala y los diferentes recursos y técnicas y aún así, te encuentres algo perdido. No te preocupes, te quiero presentar en el artículo de hoy, no sólo las herramientas antes citadas, sino además un truco o atajo para comenzar a utilizarlas para la creación o construcción de tu primer solo de guitarra...


Escala, Recursos y Técnicas Básicas para Crear tu Primer Solo de Guitarra.
La Escala Pentatónica.  Resumiendo mucho, podríamos diferenciar dos partes en el aprendizaje de la guitarra, la primera, los acordes con los que vamos a crear ritmos y la segunda, las escalas con las que crearemos los solos.

  Escalas hay muchas, pero sin duda, la más práctica y fácil de aprender para empezar es la Escala Pentatónica Menor.

La Escala Pentatónica mayor suena almo más …

Acordes de... Extraterrestre. Coque Malla.

Coque Malla estrena vídeo para su último single "Extraterrestre", canción incluida en su más reciente disco "¿Revolución?" publicado en octubre de 2019.  El sábado 15 de febrero llegará a Madrid la gira con la que Coque Malla lleva meses presentando su último trabajo.
  A continuación os quiero dejar unos acordes para guitarra del tema "Extraterrestre" para que paséis un buen rato y practiquéis con vuestra guitarra si sois de los que os gusta Coque Malla y su música.

  Un saludo.






Acordes de... Extraterrestre. Coque Malla.
Mi Desde que te vi yo supe 
Si que venías de otra parte
La Eres tan distinto, 
Sol# eres tan extraterrestre.
Mi No haces casi nada pero 
Si tienes todo lo importante.
La Quiero ser como tú, 
Sol# quiero ser igual que tú.
Sol#m                  Do#m Ven, dinos qué hacer, 
La                       Si dinos por dónde sigue el camino.        
Sol#m                                 Do#m Hace mucho tiempo que el mundo 
 La                                             F…

5 Consejos Básicos para Empezar a Tocar la Guitarra.

Nunca está de más, recordar algunos consejos que harán que mejores notablemente en tu aprendizaje con la guitarra. Unos sencillos pasos con los que optimizaremos nuestro tiempo y conseguiremos resultados mucho más rápido aunque, es verdad que estas recomendaciones podríamos resumirlas o ampliarlas siempre con acierto.


5 Consejos Básicos para Empezar a Tocar la Guitarra.Utiliza metrónomo. El metrónomo es una de las herramientas más útiles y prácticas a la hora de aprender a tocar la guitarra. Regulalo a una velocidad lenta, ejecuta el ejercicio lento y con exactitud. Si consigues tocarlo 3 veces seguidas, vuelve a subir la velocidad hasta llegar a la recomendada para el ejercicio. Prueba a tocarlo por encima del tempo, así cuando rebajes la velocidad del metrónomo a la adecuada para el ejercicio, te resultará más sencillo.

Practica sin efectos. Sin efectos te sonará todo más limpio, evidentemente y te será más fácil localizar los fallos de tu ejecución, que quizás con la distorsión u o…

Quién Puede Aprender a tocar la Guitarra?

Cualquier persona puede aprender a tocar la guitarra, partiendo de esa premisa quizás la siguiente pregunta pudiera ser: A qué edad debo comenzar? o A qué edad ya no debería intentarlo?

  No, no existe una edad determinada para aprender a tocar la guitarra. Si es verdad que hay numerosos estudios científicos que dicen, que la edad para aprender a tocar cualquier instrumento está situada entre los tres y diez años, algunos incluso afinan más y sitúan la mejor época para comenzar a tocar la guitarra entre los siete u ocho años, desde luego que las personas que han comenzado a tocar muy jóvenes han demostrado mayor afinidad con el instrumento.
  Esa afinidad hace que no les sea difícil tocarlo, pero, esto no significa que comenzando más tarde, todo esté perdido.
  Por eso, tanto si estás en una edad temprana, como si pasas los cincuenta, estás en el momento adecuado, recuerda que, lo importante y lo que será determinante, serán la pasión, la fuerza de voluntad y la motivación.


Ten en cuent…